1st verse

by ..., Wednesday, September 14, 2022, 23:44 (614 days ago) @ webmaster
edited by admin, Sunday, September 18, 2022, 23:51

1ST VERSE

... Blackbird singing in the dead of ...
e----------------------------------------|  picking pattern: 
b---0----------1a----------3d--------/---|  xb - a (3x)
g--------0-----------0-----------0-------|
D----------------------------------------|
A--------------0-----------2a--------/---|
E---3c-----------------------------------|
    <----------- 6/8 ------------>

... night ...
e----------------------------------|--------------------------------------|  picking pattern:
b---12d-------12d-------12d--------|---12d-------12d-------12d--------\---|  xb - a - b - x - b - a (2x)
g---------0-------------------0----|---------0--------------------0-------|
D----------------------------------|--------------------------------------|
A---10a------------10a-------------|---10a------------10a-------------\---|
E----------------------------------|--------------------------------------|
          <---- 4/16 ----->                  <---- 4/16 ----->

... take these broken wings and learn to ...
e-------------3a--------|------------5a-----------|  picking pattern:
b---5d------------------|---7d----------------/---|  xb - a (4x)
g--------0---------0----|--------0--------0-------|
D-----------------------|-------------------------|
A---3a--------4b--------|---5a-------6b-------/---|
E-----------------------|-------------------------|

... fly ...
e--------------------------------|-----------------------------------|  picking pattern: 
b---8d-------8d--------8d--------|---8d-------8d--------8d-------\---|  xb - a - b - x - b - a (2x)
g--------0------------------0----|--------0------------------0-------|
D--------------------------------|-----------------------------------|  
A---7b------------7b-------------|---6a------------6a------------\---|
E--------------------------------|-----------------------------------|
         <---- 4/16 ---->                 <---- 4/16 ---->

... all your ... 
e----------------3a-------|  picking pattern:
b---7d-------\------------|  xb - a - xc - a
g--------0------------0---|
D-------------------------|
A---5a-----------4b-------|
E-------------------------|

... life ...
e--------------------------------|-----------------------------------|  picking pattern:
b---5d-------5d--------5d--------|---4c-------4c--------4c-------\---|  xb - a - b - x - b - a (2x)
g--------0------------------0----|--------0------------------0-------|
D--------------------------------|-----------------------------------|
A---3a------------3a-------------|---3a------------3a------------\---|
E--------------------------------|-----------------------------------|
         <---- 4/16 ---->                 <---- 4/16 ---->

... you were only waiting for this ...
e---------------------------------|----------------------------------|  picking pattern:
b---3c--------3c--------3c--------|---2b---------2b--------2b--------|  xb - a - b - x - b - a (2x)
g--------0-------------------0----|---------0-------------------0----|
D---------------------------------|----------------------------------|
A---2a-------------2a-------------|---0---------------0--------------|
E---------------------------------|----------------------------------|
         <---- 4/16 ----->                  <---- 4/16 ----->

...  moment to arise ...
e---------------------------------|----------------------------------|  picking pattern:
b---1a--------1a--------1a--------|---0----------0---------0---------|  xb - a - b - x - b - a (2x)
g--------0-------------------0----|---------0-------------------0----|
D---0--------------0--------------|----------------------------------|
A---------------------------------|----------------------------------|
E---------------------------------|---3c--------------3c-------------|
         <---- 4/16 ----->                  <---- 4/16 ---->


Complete thread:

 RSS Feed of thread

powered by my little forum